ISO-10303-21;
HEADER;
FILE_DESCRIPTION (( 'STEP AP203' ),
    '1' );
FILE_NAME ('TK04.B.3000.STEP',
    '2022-03-16T05:19:14',
    ( '' ),
    ( '' ),
    'SwSTEP 2.0',
    'SolidWorks 2021',
    '' );
FILE_SCHEMA (( 'CONFIG_CONTROL_DESIGN' ));
ENDSEC;

DATA;
#1 = PERSON_AND_ORGANIZATION ( #224, #243 ) ;
#2 = DIRECTION ( 'NONE',  ( -0.000000000000000000, -0.000000000000000000, -1.000000000000000000 ) ) ;
#3 = APPLICATION_PROTOCOL_DEFINITION ( 'international standard', 'config_control_design', 1994, #123 ) ;
#4 = ADVANCED_FACE ( 'NONE', ( #11 ), #158, .T. ) ;
#5 = AXIS2_PLACEMENT_3D ( 'NONE', #190, #31, #249 ) ;
#6 = ORIENTED_EDGE ( 'NONE', *, *, #173, .T. ) ;
#7 = ADVANCED_BREP_SHAPE_REPRESENTATION ( 'TK04.B.3000', ( #43, #95 ), #197 ) ;
#8 = UNCERTAINTY_MEASURE_WITH_UNIT (LENGTH_MEASURE( 1.000000000000000082E-05 ), #152, 'distance_accuracy_value', 'NONE');
#9 = DIRECTION ( 'NONE',  ( -0.000000000000000000, -0.000000000000000000, -1.000000000000000000 ) ) ;
#10 = ORIENTED_EDGE ( 'NONE', *, *, #85, .T. ) ;
#11 = FACE_OUTER_BOUND ( 'NONE', #198, .T. ) ;
#12 = EDGE_CURVE ( 'NONE', #117, #63, #96, .T. ) ;
#13 = EDGE_LOOP ( 'NONE', ( #201, #76, #10, #78 ) ) ;
#14 = PRODUCT_DEFINITION_FORMATION_WITH_SPECIFIED_SOURCE ( 'HERHANGÝ', '', #111, .NOT_KNOWN. ) ;
#15 = DIRECTION ( 'NONE',  ( 0.000000000000000000, 0.000000000000000000, 1.000000000000000000 ) ) ;
#16 = CARTESIAN_POINT ( 'NONE',  ( 0.000000000000000000, 0.000000000000000000, 3072.780000000000200 ) ) ;
#17 = CIRCLE ( 'NONE', #22, 15.00000000000000000 ) ;
#18 = DIRECTION ( 'NONE',  ( 1.000000000000000000, 0.000000000000000000, -0.000000000000000000 ) ) ;
#19 = COORDINATED_UNIVERSAL_TIME_OFFSET ( 3, 0, .AHEAD. ) ;
#20 = CC_DESIGN_PERSON_AND_ORGANIZATION_ASSIGNMENT ( #130, #125, ( #14 ) ) ;
#21 = DIRECTION ( 'NONE',  ( -1.000000000000000000, 0.000000000000000000, 0.000000000000000000 ) ) ;
#22 = AXIS2_PLACEMENT_3D ( 'NONE', #16, #232, #231 ) ;
#23 = CARTESIAN_POINT ( 'NONE',  ( -13.00000000000000711, 0.000000000000000000, 100.0000000000000853 ) ) ;
#24 = APPROVAL ( #210, 'BELÝRTÝLMEMÝÞ' ) ;
#25 = SECURITY_CLASSIFICATION ( '', '', #82 ) ;
#26 = ORIENTED_EDGE ( 'NONE', *, *, #99, .F. ) ;
#27 = EDGE_CURVE ( 'NONE', #28, #98, #141, .T. ) ;
#28 = VERTEX_POINT ( 'NONE', #159 ) ;
#29 = CARTESIAN_POINT ( 'NONE',  ( 0.000000000000000000, 0.000000000000000000, 3072.780000000000200 ) ) ;
#30 = ORIENTED_EDGE ( 'NONE', *, *, #212, .F. ) ;
#31 = DIRECTION ( 'NONE',  ( -0.000000000000000000, -0.000000000000000000, -1.000000000000000000 ) ) ;
#32 = DIRECTION ( 'NONE',  ( -1.000000000000000000, 0.000000000000000000, 0.000000000000000000 ) ) ;
#33 = DIRECTION ( 'NONE',  ( -1.000000000000000000, 0.000000000000000000, 0.000000000000000000 ) ) ;
#34 = AXIS2_PLACEMENT_3D ( 'NONE', #73, #211, #37 ) ;
#35 = CARTESIAN_POINT ( 'NONE',  ( 15.00000000000000000, 1.836970198721029589E-15, 3050.000000000000909 ) ) ;
#36 = DATE_AND_TIME ( #172, #205 ) ;
#37 = DIRECTION ( 'NONE',  ( -1.000000000000000000, 0.000000000000000000, 0.000000000000000000 ) ) ;
#38 = MECHANICAL_CONTEXT ( 'NONE', #215, 'mechanical' ) ;
#39 = CC_DESIGN_DATE_AND_TIME_ASSIGNMENT ( #104, #84, ( #25 ) ) ;
#40 = CIRCLE ( 'NONE', #5, 15.00000000000000000 ) ;
#41 = APPROVAL ( #135, 'BELÝRTÝLMEMÝÞ' ) ;
#42 = CC_DESIGN_APPROVAL ( #24, ( #206 ) ) ;
#43 = MANIFOLD_SOLID_BREP ( 'Ayýr2', #166 ) ;
#44 = ORIENTED_EDGE ( 'NONE', *, *, #177, .F. ) ;
#45 = ORIENTED_EDGE ( 'NONE', *, *, #27, .F. ) ;
#46 = DESIGN_CONTEXT ( 'detailed design', #123, 'design' ) ;
#47 = VERTEX_POINT ( 'NONE', #219 ) ;
#48 = EDGE_CURVE ( 'NONE', #98, #47, #193, .T. ) ;
#49 = ORIENTED_EDGE ( 'NONE', *, *, #57, .F. ) ;
#50 = PERSON_AND_ORGANIZATION_ROLE ( 'classification_officer' ) ;
#51 = FACE_OUTER_BOUND ( 'NONE', #13, .T. ) ;
#52 = DIRECTION ( 'NONE',  ( -0.000000000000000000, -0.000000000000000000, -1.000000000000000000 ) ) ;
#53 =( NAMED_UNIT ( * ) SI_UNIT ( $, .STERADIAN. ) SOLID_ANGLE_UNIT ( ) );
#54 = PLANE ( 'NONE',  #199 ) ;
#55 = FACE_OUTER_BOUND ( 'NONE', #101, .T. ) ;
#56 = LOCAL_TIME ( 8, 19, 14.00000000000000000, #143 ) ;
#57 = EDGE_CURVE ( 'NONE', #114, #238, #86, .T. ) ;
#58 = ADVANCED_FACE ( 'NONE', ( #247, #66 ), #54, .F. ) ;
#59 = VERTEX_POINT ( 'NONE', #148 ) ;
#60 = CC_DESIGN_PERSON_AND_ORGANIZATION_ASSIGNMENT ( #241, #227, ( #14 ) ) ;
#61 = CARTESIAN_POINT ( 'NONE',  ( -15.00000000000000000, 0.000000000000000000, 3050.000000000000909 ) ) ;
#62 = DIRECTION ( 'NONE',  ( -1.000000000000000000, 0.000000000000000000, 0.000000000000000000 ) ) ;
#63 = VERTEX_POINT ( 'NONE', #83 ) ;
#64 = DATE_AND_TIME ( #187, #113 ) ;
#65 = DIRECTION ( 'NONE',  ( -0.000000000000000000, -0.000000000000000000, -1.000000000000000000 ) ) ;
#66 = FACE_OUTER_BOUND ( 'NONE', #182, .T. ) ;
#67 = LINE ( 'NONE', #35, #220 ) ;
#68 = FACE_BOUND ( 'NONE', #181, .T. ) ;
#69 = DIRECTION ( 'NONE',  ( 0.000000000000000000, 0.000000000000000000, 1.000000000000000000 ) ) ;
#70 = CYLINDRICAL_SURFACE ( 'NONE', #222, 13.00000000000000711 ) ;
#71 = COORDINATED_UNIVERSAL_TIME_OFFSET ( 3, 0, .AHEAD. ) ;
#72 = ADVANCED_FACE ( 'NONE', ( #207 ), #244, .T. ) ;
#73 = CARTESIAN_POINT ( 'NONE',  ( 0.000000000000000000, 0.000000000000000000, 3072.780000000000200 ) ) ;
#74 = CARTESIAN_POINT ( 'NONE',  ( 0.000000000000000000, 0.000000000000000000, 3050.000000000000909 ) ) ;
#75 = VECTOR ( 'NONE', #128, 1000.000000000000000 ) ;
#76 = ORIENTED_EDGE ( 'NONE', *, *, #225, .F. ) ;
#77 = ORIENTED_EDGE ( 'NONE', *, *, #27, .T. ) ;
#78 = ORIENTED_EDGE ( 'NONE', *, *, #177, .T. ) ;
#79 = APPROVAL_STATUS ( 'not_yet_approved' ) ;
#80 = EDGE_LOOP ( 'NONE', ( #44, #49 ) ) ;
#81 = LOCAL_TIME ( 8, 19, 14.00000000000000000, #150 ) ;
#82 = SECURITY_CLASSIFICATION_LEVEL ( 'unclassified' ) ;
#83 = CARTESIAN_POINT ( 'NONE',  ( -13.00000000000000711, 0.000000000000000000, 3072.780000000000200 ) ) ;
#84 = DATE_TIME_ROLE ( 'classification_date' ) ;
#85 = EDGE_CURVE ( 'NONE', #63, #238, #245, .T. ) ;
#86 = CIRCLE ( 'NONE', #91, 13.00000000000000711 ) ;
#87 = CARTESIAN_POINT ( 'NONE',  ( 0.000000000000000000, 0.000000000000000000, 100.0000000000000853 ) ) ;
#88 = FACE_OUTER_BOUND ( 'NONE', #240, .T. ) ;
#89 = DIRECTION ( 'NONE',  ( 1.000000000000000000, 0.000000000000000000, -0.000000000000000000 ) ) ;
#90 = PLANE ( 'NONE',  #115 ) ;
#91 = AXIS2_PLACEMENT_3D ( 'NONE', #102, #223, #126 ) ;
#92 = PERSON_AND_ORGANIZATION ( #224, #243 ) ;
#93 = DIRECTION ( 'NONE',  ( 0.000000000000000000, 0.000000000000000000, 1.000000000000000000 ) ) ;
#94 = CC_DESIGN_APPROVAL ( #41, ( #14 ) ) ;
#95 = AXIS2_PLACEMENT_3D ( 'NONE', #129, #108, #230 ) ;
#96 = CIRCLE ( 'NONE', #202, 13.00000000000000711 ) ;
#97 = ORIENTED_EDGE ( 'NONE', *, *, #212, .T. ) ;
#98 = VERTEX_POINT ( 'NONE', #124 ) ;
#99 = EDGE_CURVE ( 'NONE', #59, #47, #67, .T. ) ;
#100 = ORIENTED_EDGE ( 'NONE', *, *, #173, .F. ) ;
#101 = EDGE_LOOP ( 'NONE', ( #221, #100 ) ) ;
#102 = CARTESIAN_POINT ( 'NONE',  ( 0.000000000000000000, 0.000000000000000000, 100.0000000000000853 ) ) ;
#103 = CARTESIAN_POINT ( 'NONE',  ( 13.00000000000000711, 1.592040838891559884E-15, 100.0000000000000853 ) ) ;
#104 = DATE_AND_TIME ( #162, #56 ) ;
#105 = CIRCLE ( 'NONE', #110, 15.00000000000000000 ) ;
#106 = PERSON_AND_ORGANIZATION ( #224, #243 ) ;
#107 = APPROVAL_DATE_TIME ( #36, #24 ) ;
#108 = DIRECTION ( 'NONE',  ( 0.000000000000000000, 0.000000000000000000, 1.000000000000000000 ) ) ;
#109 = APPROVAL ( #79, 'BELÝRTÝLMEMÝÞ' ) ;
#110 = AXIS2_PLACEMENT_3D ( 'NONE', #234, #93, #21 ) ;
#111 = PRODUCT ( 'TK04.B.3000', 'TK04.B.3000', '', ( #38 ) ) ;
#112 = ADVANCED_FACE ( 'NONE', ( #51 ), #204, .F. ) ;
#113 = LOCAL_TIME ( 8, 19, 14.00000000000000000, #168 ) ;
#114 = VERTEX_POINT ( 'NONE', #103 ) ;
#115 = AXIS2_PLACEMENT_3D ( 'NONE', #248, #208, #89 ) ;
#116 = CARTESIAN_POINT ( 'NONE',  ( 0.000000000000000000, 0.000000000000000000, 100.0000000000000853 ) ) ;
#117 = VERTEX_POINT ( 'NONE', #229 ) ;
#118 = ORIENTED_EDGE ( 'NONE', *, *, #12, .F. ) ;
#119 = APPROVAL_ROLE ( '' ) ;
#120 = AXIS2_PLACEMENT_3D ( 'NONE', #167, #146, #145 ) ;
#121 = ORIENTED_EDGE ( 'NONE', *, *, #99, .T. ) ;
#122 = ADVANCED_FACE ( 'NONE', ( #88 ), #70, .F. ) ;
#123 = APPLICATION_CONTEXT ( 'configuration controlled 3d designs of mechanical parts and assemblies' ) ;
#124 = CARTESIAN_POINT ( 'NONE',  ( -15.00000000000000000, 0.000000000000000000, 100.0000000000000853 ) ) ;
#125 = PERSON_AND_ORGANIZATION_ROLE ( 'creator' ) ;
#126 = DIRECTION ( 'NONE',  ( -1.000000000000000000, 0.000000000000000000, 0.000000000000000000 ) ) ;
#127 = APPROVAL_ROLE ( '' ) ;
#128 = DIRECTION ( 'NONE',  ( -0.000000000000000000, -0.000000000000000000, -1.000000000000000000 ) ) ;
#129 = CARTESIAN_POINT ( 'NONE',  ( 0.000000000000000000, 0.000000000000000000, 0.000000000000000000 ) ) ;
#130 = PERSON_AND_ORGANIZATION ( #224, #243 ) ;
#131 =( NAMED_UNIT ( * ) PLANE_ANGLE_UNIT ( ) SI_UNIT ( $, .RADIAN. ) );
#132 = APPROVAL_PERSON_ORGANIZATION ( #228, #24, #127 ) ;
#133 = CARTESIAN_POINT ( 'NONE',  ( 13.00000000000000711, 1.592040838891559884E-15, 3050.000000000000909 ) ) ;
#134 = PRODUCT_DEFINITION_SHAPE ( 'NONE', 'NONE',  #206 ) ;
#135 = APPROVAL_STATUS ( 'not_yet_approved' ) ;
#136 = AXIS2_PLACEMENT_3D ( 'NONE', #209, #52, #32 ) ;
#137 = DATE_AND_TIME ( #196, #217 ) ;
#138 = EDGE_CURVE ( 'NONE', #117, #114, #191, .T. ) ;
#139 = ORIENTED_EDGE ( 'NONE', *, *, #12, .T. ) ;
#140 = CIRCLE ( 'NONE', #34, 13.00000000000000711 ) ;
#141 = LINE ( 'NONE', #61, #160 ) ;
#142 = EDGE_LOOP ( 'NONE', ( #26, #6, #77, #218 ) ) ;
#143 = COORDINATED_UNIVERSAL_TIME_OFFSET ( 3, 0, .AHEAD. ) ;
#144 = APPROVAL_DATE_TIME ( #64, #109 ) ;
#145 = DIRECTION ( 'NONE',  ( -1.000000000000000000, 0.000000000000000000, 0.000000000000000000 ) ) ;
#146 = DIRECTION ( 'NONE',  ( -0.000000000000000000, -0.000000000000000000, -1.000000000000000000 ) ) ;
#147 = PERSON_AND_ORGANIZATION_ROLE ( 'design_owner' ) ;
#148 = CARTESIAN_POINT ( 'NONE',  ( 15.00000000000000000, 1.836970198721029589E-15, 3072.780000000000200 ) ) ;
#149 = DIRECTION ( 'NONE',  ( -1.000000000000000000, 0.000000000000000000, 0.000000000000000000 ) ) ;
#150 = COORDINATED_UNIVERSAL_TIME_OFFSET ( 3, 0, .AHEAD. ) ;
#151 = CC_DESIGN_APPROVAL ( #109, ( #25 ) ) ;
#152 =( LENGTH_UNIT ( ) NAMED_UNIT ( * ) SI_UNIT ( .MILLI., .METRE. ) );
#153 = DATE_AND_TIME ( #194, #81 ) ;
#154 = AXIS2_PLACEMENT_3D ( 'NONE', #87, #169, #149 ) ;
#155 = CC_DESIGN_PERSON_AND_ORGANIZATION_ASSIGNMENT ( #1, #174, ( #206 ) ) ;
#156 = CC_DESIGN_SECURITY_CLASSIFICATION ( #25, ( #14 ) ) ;
#157 = CIRCLE ( 'NONE', #154, 13.00000000000000711 ) ;
#158 = CYLINDRICAL_SURFACE ( 'NONE', #185, 15.00000000000000000 ) ;
#159 = CARTESIAN_POINT ( 'NONE',  ( -15.00000000000000000, 0.000000000000000000, 3072.780000000000200 ) ) ;
#160 = VECTOR ( 'NONE', #9, 1000.000000000000000 ) ;
#161 = ORIENTED_EDGE ( 'NONE', *, *, #138, .T. ) ;
#162 = CALENDAR_DATE ( 2022, 16, 3 ) ;
#163 = ADVANCED_FACE ( 'NONE', ( #55, #68 ), #90, .T. ) ;
#164 = ORIENTED_EDGE ( 'NONE', *, *, #48, .F. ) ;
#165 = ORIENTED_EDGE ( 'NONE', *, *, #225, .T. ) ;
#166 = CLOSED_SHELL ( 'NONE', ( #4, #122, #72, #58, #163, #112 ) ) ;
#167 = CARTESIAN_POINT ( 'NONE',  ( 0.000000000000000000, 0.000000000000000000, 3050.000000000000909 ) ) ;
#168 = COORDINATED_UNIVERSAL_TIME_OFFSET ( 3, 0, .AHEAD. ) ;
#169 = DIRECTION ( 'NONE',  ( -0.000000000000000000, -0.000000000000000000, -1.000000000000000000 ) ) ;
#170 = CARTESIAN_POINT ( 'NONE',  ( -13.00000000000000711, 0.000000000000000000, 3050.000000000000909 ) ) ;
#171 = PERSON_AND_ORGANIZATION ( #224, #243 ) ;
#172 = CALENDAR_DATE ( 2022, 16, 3 ) ;
#173 = EDGE_CURVE ( 'NONE', #59, #28, #17, .T. ) ;
#174 = PERSON_AND_ORGANIZATION_ROLE ( 'creator' ) ;
#175 = DIRECTION ( 'NONE',  ( -0.000000000000000000, -0.000000000000000000, -1.000000000000000000 ) ) ;
#176 = APPROVAL_PERSON_ORGANIZATION ( #92, #41, #214 ) ;
#177 = EDGE_CURVE ( 'NONE', #238, #114, #157, .T. ) ;
#178 = AXIS2_PLACEMENT_3D ( 'NONE', #116, #69, #184 ) ;
#179 = PRODUCT_RELATED_PRODUCT_CATEGORY ( 'detail', '', ( #111 ) ) ;
#180 = ORIENTED_EDGE ( 'NONE', *, *, #216, .T. ) ;
#181 = EDGE_LOOP ( 'NONE', ( #165, #139 ) ) ;
#182 = EDGE_LOOP ( 'NONE', ( #164, #30 ) ) ;
#183 = ORIENTED_EDGE ( 'NONE', *, *, #85, .F. ) ;
#184 = DIRECTION ( 'NONE',  ( -1.000000000000000000, 0.000000000000000000, 0.000000000000000000 ) ) ;
#185 = AXIS2_PLACEMENT_3D ( 'NONE', #242, #65, #62 ) ;
#186 = CARTESIAN_POINT ( 'NONE',  ( 0.000000000000000000, 0.000000000000000000, 100.0000000000000000 ) ) ;
#187 = CALENDAR_DATE ( 2022, 16, 3 ) ;
#188 = CC_DESIGN_PERSON_AND_ORGANIZATION_ASSIGNMENT ( #106, #50, ( #25 ) ) ;
#189 = APPROVAL_DATE_TIME ( #137, #41 ) ;
#190 = CARTESIAN_POINT ( 'NONE',  ( 0.000000000000000000, 0.000000000000000000, 3072.780000000000200 ) ) ;
#191 = LINE ( 'NONE', #133, #239 ) ;
#192 = CC_DESIGN_DATE_AND_TIME_ASSIGNMENT ( #153, #235, ( #206 ) ) ;
#193 = CIRCLE ( 'NONE', #178, 15.00000000000000000 ) ;
#194 = CALENDAR_DATE ( 2022, 16, 3 ) ;
#195 = PERSON_AND_ORGANIZATION ( #224, #243 ) ;
#196 = CALENDAR_DATE ( 2022, 16, 3 ) ;
#197 =( GEOMETRIC_REPRESENTATION_CONTEXT ( 3 ) GLOBAL_UNCERTAINTY_ASSIGNED_CONTEXT ( ( #8 ) ) GLOBAL_UNIT_ASSIGNED_CONTEXT ( ( #152, #131, #53 ) ) REPRESENTATION_CONTEXT ( 'NONE', 'WORKASPACE' ) );
#198 = EDGE_LOOP ( 'NONE', ( #180, #121, #97, #45 ) ) ;
#199 = AXIS2_PLACEMENT_3D ( 'NONE', #186, #15, #18 ) ;
#200 = ORIENTED_EDGE ( 'NONE', *, *, #57, .T. ) ;
#201 = ORIENTED_EDGE ( 'NONE', *, *, #138, .F. ) ;
#202 = AXIS2_PLACEMENT_3D ( 'NONE', #29, #203, #237 ) ;
#203 = DIRECTION ( 'NONE',  ( -0.000000000000000000, -0.000000000000000000, -1.000000000000000000 ) ) ;
#204 = CYLINDRICAL_SURFACE ( 'NONE', #136, 13.00000000000000711 ) ;
#205 = LOCAL_TIME ( 8, 19, 14.00000000000000000, #19 ) ;
#206 = PRODUCT_DEFINITION ( 'BÝLÝNMEYEN', '', #14, #46 ) ;
#207 = FACE_OUTER_BOUND ( 'NONE', #142, .T. ) ;
#208 = DIRECTION ( 'NONE',  ( 0.000000000000000000, 0.000000000000000000, 1.000000000000000000 ) ) ;
#209 = CARTESIAN_POINT ( 'NONE',  ( 0.000000000000000000, 0.000000000000000000, 3050.000000000000909 ) ) ;
#210 = APPROVAL_STATUS ( 'not_yet_approved' ) ;
#211 = DIRECTION ( 'NONE',  ( -0.000000000000000000, -0.000000000000000000, -1.000000000000000000 ) ) ;
#212 = EDGE_CURVE ( 'NONE', #47, #98, #105, .T. ) ;
#213 = APPLICATION_PROTOCOL_DEFINITION ( 'international standard', 'config_control_design', 1994, #215 ) ;
#214 = APPROVAL_ROLE ( '' ) ;
#215 = APPLICATION_CONTEXT ( 'configuration controlled 3d designs of mechanical parts and assemblies' ) ;
#216 = EDGE_CURVE ( 'NONE', #28, #59, #40, .T. ) ;
#217 = LOCAL_TIME ( 8, 19, 14.00000000000000000, #71 ) ;
#218 = ORIENTED_EDGE ( 'NONE', *, *, #48, .T. ) ;
#219 = CARTESIAN_POINT ( 'NONE',  ( 15.00000000000000000, 1.836970198721029589E-15, 100.0000000000000853 ) ) ;
#220 = VECTOR ( 'NONE', #226, 1000.000000000000000 ) ;
#221 = ORIENTED_EDGE ( 'NONE', *, *, #216, .F. ) ;
#222 = AXIS2_PLACEMENT_3D ( 'NONE', #74, #175, #33 ) ;
#223 = DIRECTION ( 'NONE',  ( -0.000000000000000000, -0.000000000000000000, -1.000000000000000000 ) ) ;
#224 = PERSON ( 'BELÝRTÝLMEMÝÞ', 'BELÝRTÝLMEMÝÞ', 'BELÝRTÝLMEMÝÞ', ('BELÝRTÝLMEMÝÞ'), ('BELÝRTÝLMEMÝÞ'), ('BELÝRTÝLMEMÝÞ') ) ;
#225 = EDGE_CURVE ( 'NONE', #63, #117, #140, .T. ) ;
#226 = DIRECTION ( 'NONE',  ( -0.000000000000000000, -0.000000000000000000, -1.000000000000000000 ) ) ;
#227 = PERSON_AND_ORGANIZATION_ROLE ( 'design_supplier' ) ;
#228 = PERSON_AND_ORGANIZATION ( #224, #243 ) ;
#229 = CARTESIAN_POINT ( 'NONE',  ( 13.00000000000000711, 1.592040838891559884E-15, 3072.780000000000200 ) ) ;
#230 = DIRECTION ( 'NONE',  ( 1.000000000000000000, 0.000000000000000000, 0.000000000000000000 ) ) ;
#231 = DIRECTION ( 'NONE',  ( -1.000000000000000000, 0.000000000000000000, 0.000000000000000000 ) ) ;
#232 = DIRECTION ( 'NONE',  ( -0.000000000000000000, -0.000000000000000000, -1.000000000000000000 ) ) ;
#233 = APPROVAL_PERSON_ORGANIZATION ( #171, #109, #119 ) ;
#234 = CARTESIAN_POINT ( 'NONE',  ( 0.000000000000000000, 0.000000000000000000, 100.0000000000000853 ) ) ;
#235 = DATE_TIME_ROLE ( 'creation_date' ) ;
#236 = CC_DESIGN_PERSON_AND_ORGANIZATION_ASSIGNMENT ( #195, #147, ( #111 ) ) ;
#237 = DIRECTION ( 'NONE',  ( -1.000000000000000000, 0.000000000000000000, 0.000000000000000000 ) ) ;
#238 = VERTEX_POINT ( 'NONE', #23 ) ;
#239 = VECTOR ( 'NONE', #2, 1000.000000000000000 ) ;
#240 = EDGE_LOOP ( 'NONE', ( #118, #161, #200, #183 ) ) ;
#241 = PERSON_AND_ORGANIZATION ( #224, #243 ) ;
#242 = CARTESIAN_POINT ( 'NONE',  ( 0.000000000000000000, 0.000000000000000000, 3050.000000000000909 ) ) ;
#243 = ORGANIZATION ( 'BELÝRTÝLMEMÝÞ', 'BELÝRTÝLMEMÝÞ', '' ) ;
#244 = CYLINDRICAL_SURFACE ( 'NONE', #120, 15.00000000000000000 ) ;
#245 = LINE ( 'NONE', #170, #75 ) ;
#246 = SHAPE_DEFINITION_REPRESENTATION ( #134, #7 ) ;
#247 = FACE_BOUND ( 'NONE', #80, .T. ) ;
#248 = CARTESIAN_POINT ( 'NONE',  ( 0.000000000000000000, 0.000000000000000000, 3072.780000000000200 ) ) ;
#249 = DIRECTION ( 'NONE',  ( -1.000000000000000000, 0.000000000000000000, 0.000000000000000000 ) ) ;
ENDSEC;
END-ISO-10303-21;
